ISO-10303-21;
HEADER;
/* Generated by software containing ST-Developer
 * from STEP Tools, Inc. (www.steptools.com) 
 */

FILE_DESCRIPTION(
/* description */ (''),
/* implementation_level */ '2;1');

FILE_NAME(
/* name */ 
'C:/Users/brian/Documents/Projects/Project folders (active-ish)/Replic
a RickAndMorty Butter Bot (Machined)/thingverse files/face CAM v6.step',

/* time_stamp */ '2017-08-20T11:54:37-07:00',
/* author */ (''),
/* organization */ (''),
/* preprocessor_version */ 'ST-DEVELOPER v16.13',
/* originating_system */ 'Autodesk Translation Framework v6.1.1.50',
/* authorisation */ '');

FILE_SCHEMA (('AUTOMOTIVE_DESIGN { 1 0 10303 214 3 1 1 }'));
ENDSEC;

DATA;
#10=MECHANICAL_DESIGN_GEOMETRIC_PRESENTATION_REPRESENTATION('',(#25,#26,
#27),#615);
#11=SHAPE_REPRESENTATION_RELATIONSHIP('SRR','None',#624,#12);
#12=ADVANCED_BREP_SHAPE_REPRESENTATION('',(#28,#29,#30),#614);
#13=CIRCLE('',#392,0.0999999999999998);
#14=CIRCLE('',#393,0.0999999999999998);
#15=CIRCLE('',#395,0.5);
#16=CIRCLE('',#396,0.5);
#17=CIRCLE('',#400,0.6);
#18=CIRCLE('',#401,0.6);
#19=CIRCLE('',#403,0.125);
#20=CIRCLE('',#405,0.125);
#21=CYLINDRICAL_SURFACE('',#391,0.0999999999999998);
#22=CYLINDRICAL_SURFACE('',#394,0.5);
#23=CYLINDRICAL_SURFACE('',#399,0.6);
#24=CYLINDRICAL_SURFACE('',#404,0.125);
#25=STYLED_ITEM('',(#633),#28);
#26=STYLED_ITEM('',(#633),#29);
#27=STYLED_ITEM('',(#633),#30);
#28=MANIFOLD_SOLID_BREP('Body2',#377);
#29=MANIFOLD_SOLID_BREP('Body3',#378);
#30=MANIFOLD_SOLID_BREP('Body1',#379);
#31=FACE_BOUND('',#74,.T.);
#32=FACE_BOUND('',#76,.T.);
#33=FACE_BOUND('',#78,.T.);
#34=FACE_BOUND('',#80,.T.);
#35=FACE_BOUND('',#82,.T.);
#36=FACE_BOUND('',#84,.T.);
#37=FACE_BOUND('',#86,.T.);
#38=FACE_BOUND('',#88,.T.);
#39=FACE_BOUND('',#90,.T.);
#40=FACE_BOUND('',#96,.T.);
#41=FACE_BOUND('',#98,.T.);
#42=FACE_OUTER_BOUND('',#65,.T.);
#43=FACE_OUTER_BOUND('',#66,.T.);
#44=FACE_OUTER_BOUND('',#67,.T.);
#45=FACE_OUTER_BOUND('',#68,.T.);
#46=FACE_OUTER_BOUND('',#69,.T.);
#47=FACE_OUTER_BOUND('',#70,.T.);
#48=FACE_OUTER_BOUND('',#71,.T.);
#49=FACE_OUTER_BOUND('',#72,.T.);
#50=FACE_OUTER_BOUND('',#73,.T.);
#51=FACE_OUTER_BOUND('',#75,.T.);
#52=FACE_OUTER_BOUND('',#77,.T.);
#53=FACE_OUTER_BOUND('',#79,.T.);
#54=FACE_OUTER_BOUND('',#81,.T.);
#55=FACE_OUTER_BOUND('',#83,.T.);
#56=FACE_OUTER_BOUND('',#85,.T.);
#57=FACE_OUTER_BOUND('',#87,.T.);
#58=FACE_OUTER_BOUND('',#89,.T.);
#59=FACE_OUTER_BOUND('',#91,.T.);
#60=FACE_OUTER_BOUND('',#92,.T.);
#61=FACE_OUTER_BOUND('',#93,.T.);
#62=FACE_OUTER_BOUND('',#94,.T.);
#63=FACE_OUTER_BOUND('',#95,.T.);
#64=FACE_OUTER_BOUND('',#97,.T.);
#65=EDGE_LOOP('',(#247,#248,#249,#250));
#66=EDGE_LOOP('',(#251,#252,#253,#254));
#67=EDGE_LOOP('',(#255,#256,#257,#258));
#68=EDGE_LOOP('',(#259,#260,#261,#262));
#69=EDGE_LOOP('',(#263,#264,#265,#266));
#70=EDGE_LOOP('',(#267,#268,#269,#270));
#71=EDGE_LOOP('',(#271,#272,#273,#274));
#72=EDGE_LOOP('',(#275,#276,#277,#278));
#73=EDGE_LOOP('',(#279,#280,#281,#282));
#74=EDGE_LOOP('',(#283,#284,#285,#286));
#75=EDGE_LOOP('',(#287,#288,#289,#290));
#76=EDGE_LOOP('',(#291,#292,#293,#294));
#77=EDGE_LOOP('',(#295));
#78=EDGE_LOOP('',(#296));
#79=EDGE_LOOP('',(#297));
#80=EDGE_LOOP('',(#298));
#81=EDGE_LOOP('',(#299));
#82=EDGE_LOOP('',(#300));
#83=EDGE_LOOP('',(#301));
#84=EDGE_LOOP('',(#302));
#85=EDGE_LOOP('',(#303));
#86=EDGE_LOOP('',(#304));
#87=EDGE_LOOP('',(#305));
#88=EDGE_LOOP('',(#306));
#89=EDGE_LOOP('',(#307));
#90=EDGE_LOOP('',(#308));
#91=EDGE_LOOP('',(#309,#310,#311,#312));
#92=EDGE_LOOP('',(#313,#314,#315,#316));
#93=EDGE_LOOP('',(#317,#318,#319,#320));
#94=EDGE_LOOP('',(#321,#322,#323,#324));
#95=EDGE_LOOP('',(#325,#326,#327,#328));
#96=EDGE_LOOP('',(#329));
#97=EDGE_LOOP('',(#330,#331,#332,#333));
#98=EDGE_LOOP('',(#334));
#99=LINE('',#516,#135);
#100=LINE('',#518,#136);
#101=LINE('',#520,#137);
#102=LINE('',#521,#138);
#103=LINE('',#524,#139);
#104=LINE('',#526,#140);
#105=LINE('',#527,#141);
#106=LINE('',#530,#142);
#107=LINE('',#532,#143);
#108=LINE('',#533,#144);
#109=LINE('',#535,#145);
#110=LINE('',#536,#146);
#111=LINE('',#540,#147);
#112=LINE('',#542,#148);
#113=LINE('',#544,#149);
#114=LINE('',#545,#150);
#115=LINE('',#548,#151);
#116=LINE('',#550,#152);
#117=LINE('',#551,#153);
#118=LINE('',#554,#154);
#119=LINE('',#556,#155);
#120=LINE('',#557,#156);
#121=LINE('',#559,#157);
#122=LINE('',#560,#158);
#123=LINE('',#589,#159);
#124=LINE('',#591,#160);
#125=LINE('',#593,#161);
#126=LINE('',#594,#162);
#127=LINE('',#597,#163);
#128=LINE('',#599,#164);
#129=LINE('',#600,#165);
#130=LINE('',#603,#166);
#131=LINE('',#605,#167);
#132=LINE('',#606,#168);
#133=LINE('',#608,#169);
#134=LINE('',#609,#170);
#135=VECTOR('',#416,0.393700787401575);
#136=VECTOR('',#417,0.393700787401575);
#137=VECTOR('',#418,0.393700787401575);
#138=VECTOR('',#419,0.393700787401575);
#139=VECTOR('',#422,0.393700787401575);
#140=VECTOR('',#423,0.393700787401575);
#141=VECTOR('',#424,0.393700787401575);
#142=VECTOR('',#427,0.393700787401575);
#143=VECTOR('',#428,0.393700787401575);
#144=VECTOR('',#429,0.393700787401575);
#145=VECTOR('',#432,0.393700787401575);
#146=VECTOR('',#433,0.393700787401575);
#147=VECTOR('',#436,0.393700787401575);
#148=VECTOR('',#437,0.393700787401575);
#149=VECTOR('',#438,0.393700787401575);
#150=VECTOR('',#439,0.393700787401575);
#151=VECTOR('',#442,0.393700787401575);
#152=VECTOR('',#443,0.393700787401575);
#153=VECTOR('',#444,0.393700787401575);
#154=VECTOR('',#447,0.393700787401575);
#155=VECTOR('',#448,0.393700787401575);
#156=VECTOR('',#449,0.393700787401575);
#157=VECTOR('',#452,0.393700787401575);
#158=VECTOR('',#453,0.393700787401575);
#159=VECTOR('',#490,0.393700787401575);
#160=VECTOR('',#491,0.393700787401575);
#161=VECTOR('',#492,0.393700787401575);
#162=VECTOR('',#493,0.393700787401575);
#163=VECTOR('',#496,0.393700787401575);
#164=VECTOR('',#497,0.393700787401575);
#165=VECTOR('',#498,0.393700787401575);
#166=VECTOR('',#501,0.393700787401575);
#167=VECTOR('',#502,0.393700787401575);
#168=VECTOR('',#503,0.393700787401575);
#169=VECTOR('',#506,0.393700787401575);
#170=VECTOR('',#507,0.393700787401575);
#171=VERTEX_POINT('',#514);
#172=VERTEX_POINT('',#515);
#173=VERTEX_POINT('',#517);
#174=VERTEX_POINT('',#519);
#175=VERTEX_POINT('',#523);
#176=VERTEX_POINT('',#525);
#177=VERTEX_POINT('',#529);
#178=VERTEX_POINT('',#531);
#179=VERTEX_POINT('',#538);
#180=VERTEX_POINT('',#539);
#181=VERTEX_POINT('',#541);
#182=VERTEX_POINT('',#543);
#183=VERTEX_POINT('',#547);
#184=VERTEX_POINT('',#549);
#185=VERTEX_POINT('',#553);
#186=VERTEX_POINT('',#555);
#187=VERTEX_POINT('',#564);
#188=VERTEX_POINT('',#566);
#189=VERTEX_POINT('',#569);
#190=VERTEX_POINT('',#571);
#191=VERTEX_POINT('',#576);
#192=VERTEX_POINT('',#578);
#193=VERTEX_POINT('',#581);
#194=VERTEX_POINT('',#584);
#195=VERTEX_POINT('',#587);
#196=VERTEX_POINT('',#588);
#197=VERTEX_POINT('',#590);
#198=VERTEX_POINT('',#592);
#199=VERTEX_POINT('',#596);
#200=VERTEX_POINT('',#598);
#201=VERTEX_POINT('',#602);
#202=VERTEX_POINT('',#604);
#203=EDGE_CURVE('',#171,#172,#99,.T.);
#204=EDGE_CURVE('',#172,#173,#100,.T.);
#205=EDGE_CURVE('',#174,#173,#101,.T.);
#206=EDGE_CURVE('',#171,#174,#102,.T.);
#207=EDGE_CURVE('',#175,#171,#103,.T.);
#208=EDGE_CURVE('',#176,#174,#104,.T.);
#209=EDGE_CURVE('',#175,#176,#105,.T.);
#210=EDGE_CURVE('',#177,#175,#106,.T.);
#211=EDGE_CURVE('',#178,#176,#107,.T.);
#212=EDGE_CURVE('',#177,#178,#108,.T.);
#213=EDGE_CURVE('',#172,#177,#109,.T.);
#214=EDGE_CURVE('',#173,#178,#110,.T.);
#215=EDGE_CURVE('',#179,#180,#111,.T.);
#216=EDGE_CURVE('',#180,#181,#112,.T.);
#217=EDGE_CURVE('',#182,#181,#113,.T.);
#218=EDGE_CURVE('',#179,#182,#114,.T.);
#219=EDGE_CURVE('',#183,#179,#115,.T.);
#220=EDGE_CURVE('',#184,#182,#116,.T.);
#221=EDGE_CURVE('',#183,#184,#117,.T.);
#222=EDGE_CURVE('',#185,#183,#118,.T.);
#223=EDGE_CURVE('',#186,#184,#119,.T.);
#224=EDGE_CURVE('',#185,#186,#120,.T.);
#225=EDGE_CURVE('',#180,#185,#121,.T.);
#226=EDGE_CURVE('',#181,#186,#122,.T.);
#227=EDGE_CURVE('',#187,#187,#13,.T.);
#228=EDGE_CURVE('',#188,#188,#14,.T.);
#229=EDGE_CURVE('',#189,#189,#15,.T.);
#230=EDGE_CURVE('',#190,#190,#16,.T.);
#231=EDGE_CURVE('',#191,#191,#17,.T.);
#232=EDGE_CURVE('',#192,#192,#18,.T.);
#233=EDGE_CURVE('',#193,#193,#19,.T.);
#234=EDGE_CURVE('',#194,#194,#20,.T.);
#235=EDGE_CURVE('',#195,#196,#123,.T.);
#236=EDGE_CURVE('',#195,#197,#124,.T.);
#237=EDGE_CURVE('',#198,#197,#125,.T.);
#238=EDGE_CURVE('',#196,#198,#126,.T.);
#239=EDGE_CURVE('',#196,#199,#127,.T.);
#240=EDGE_CURVE('',#200,#198,#128,.T.);
#241=EDGE_CURVE('',#199,#200,#129,.T.);
#242=EDGE_CURVE('',#199,#201,#130,.T.);
#243=EDGE_CURVE('',#202,#200,#131,.T.);
#244=EDGE_CURVE('',#201,#202,#132,.T.);
#245=EDGE_CURVE('',#201,#195,#133,.T.);
#246=EDGE_CURVE('',#197,#202,#134,.T.);
#247=ORIENTED_EDGE('',*,*,#203,.T.);
#248=ORIENTED_EDGE('',*,*,#204,.T.);
#249=ORIENTED_EDGE('',*,*,#205,.F.);
#250=ORIENTED_EDGE('',*,*,#206,.F.);
#251=ORIENTED_EDGE('',*,*,#207,.T.);
#252=ORIENTED_EDGE('',*,*,#206,.T.);
#253=ORIENTED_EDGE('',*,*,#208,.F.);
#254=ORIENTED_EDGE('',*,*,#209,.F.);
#255=ORIENTED_EDGE('',*,*,#210,.T.);
#256=ORIENTED_EDGE('',*,*,#209,.T.);
#257=ORIENTED_EDGE('',*,*,#211,.F.);
#258=ORIENTED_EDGE('',*,*,#212,.F.);
#259=ORIENTED_EDGE('',*,*,#213,.T.);
#260=ORIENTED_EDGE('',*,*,#212,.T.);
#261=ORIENTED_EDGE('',*,*,#214,.F.);
#262=ORIENTED_EDGE('',*,*,#204,.F.);
#263=ORIENTED_EDGE('',*,*,#215,.T.);
#264=ORIENTED_EDGE('',*,*,#216,.T.);
#265=ORIENTED_EDGE('',*,*,#217,.F.);
#266=ORIENTED_EDGE('',*,*,#218,.F.);
#267=ORIENTED_EDGE('',*,*,#219,.T.);
#268=ORIENTED_EDGE('',*,*,#218,.T.);
#269=ORIENTED_EDGE('',*,*,#220,.F.);
#270=ORIENTED_EDGE('',*,*,#221,.F.);
#271=ORIENTED_EDGE('',*,*,#222,.T.);
#272=ORIENTED_EDGE('',*,*,#221,.T.);
#273=ORIENTED_EDGE('',*,*,#223,.F.);
#274=ORIENTED_EDGE('',*,*,#224,.F.);
#275=ORIENTED_EDGE('',*,*,#225,.T.);
#276=ORIENTED_EDGE('',*,*,#224,.T.);
#277=ORIENTED_EDGE('',*,*,#226,.F.);
#278=ORIENTED_EDGE('',*,*,#216,.F.);
#279=ORIENTED_EDGE('',*,*,#226,.T.);
#280=ORIENTED_EDGE('',*,*,#223,.T.);
#281=ORIENTED_EDGE('',*,*,#220,.T.);
#282=ORIENTED_EDGE('',*,*,#217,.T.);
#283=ORIENTED_EDGE('',*,*,#214,.T.);
#284=ORIENTED_EDGE('',*,*,#211,.T.);
#285=ORIENTED_EDGE('',*,*,#208,.T.);
#286=ORIENTED_EDGE('',*,*,#205,.T.);
#287=ORIENTED_EDGE('',*,*,#225,.F.);
#288=ORIENTED_EDGE('',*,*,#215,.F.);
#289=ORIENTED_EDGE('',*,*,#219,.F.);
#290=ORIENTED_EDGE('',*,*,#222,.F.);
#291=ORIENTED_EDGE('',*,*,#213,.F.);
#292=ORIENTED_EDGE('',*,*,#203,.F.);
#293=ORIENTED_EDGE('',*,*,#207,.F.);
#294=ORIENTED_EDGE('',*,*,#210,.F.);
#295=ORIENTED_EDGE('',*,*,#227,.F.);
#296=ORIENTED_EDGE('',*,*,#228,.T.);
#297=ORIENTED_EDGE('',*,*,#229,.F.);
#298=ORIENTED_EDGE('',*,*,#230,.T.);
#299=ORIENTED_EDGE('',*,*,#229,.T.);
#300=ORIENTED_EDGE('',*,*,#227,.T.);
#301=ORIENTED_EDGE('',*,*,#230,.F.);
#302=ORIENTED_EDGE('',*,*,#228,.F.);
#303=ORIENTED_EDGE('',*,*,#231,.T.);
#304=ORIENTED_EDGE('',*,*,#232,.F.);
#305=ORIENTED_EDGE('',*,*,#231,.F.);
#306=ORIENTED_EDGE('',*,*,#233,.F.);
#307=ORIENTED_EDGE('',*,*,#233,.T.);
#308=ORIENTED_EDGE('',*,*,#234,.T.);
#309=ORIENTED_EDGE('',*,*,#235,.F.);
#310=ORIENTED_EDGE('',*,*,#236,.T.);
#311=ORIENTED_EDGE('',*,*,#237,.F.);
#312=ORIENTED_EDGE('',*,*,#238,.F.);
#313=ORIENTED_EDGE('',*,*,#239,.F.);
#314=ORIENTED_EDGE('',*,*,#238,.T.);
#315=ORIENTED_EDGE('',*,*,#240,.F.);
#316=ORIENTED_EDGE('',*,*,#241,.F.);
#317=ORIENTED_EDGE('',*,*,#242,.F.);
#318=ORIENTED_EDGE('',*,*,#241,.T.);
#319=ORIENTED_EDGE('',*,*,#243,.F.);
#320=ORIENTED_EDGE('',*,*,#244,.F.);
#321=ORIENTED_EDGE('',*,*,#245,.F.);
#322=ORIENTED_EDGE('',*,*,#244,.T.);
#323=ORIENTED_EDGE('',*,*,#246,.F.);
#324=ORIENTED_EDGE('',*,*,#236,.F.);
#325=ORIENTED_EDGE('',*,*,#246,.T.);
#326=ORIENTED_EDGE('',*,*,#243,.T.);
#327=ORIENTED_EDGE('',*,*,#240,.T.);
#328=ORIENTED_EDGE('',*,*,#237,.T.);
#329=ORIENTED_EDGE('',*,*,#232,.T.);
#330=ORIENTED_EDGE('',*,*,#245,.T.);
#331=ORIENTED_EDGE('',*,*,#235,.T.);
#332=ORIENTED_EDGE('',*,*,#239,.T.);
#333=ORIENTED_EDGE('',*,*,#242,.T.);
#334=ORIENTED_EDGE('',*,*,#234,.F.);
#335=PLANE('',#381);
#336=PLANE('',#382);
#337=PLANE('',#383);
#338=PLANE('',#384);
#339=PLANE('',#385);
#340=PLANE('',#386);
#341=PLANE('',#387);
#342=PLANE('',#388);
#343=PLANE('',#389);
#344=PLANE('',#390);
#345=PLANE('',#397);
#346=PLANE('',#398);
#347=PLANE('',#402);
#348=PLANE('',#406);
#349=PLANE('',#407);
#350=PLANE('',#408);
#351=PLANE('',#409);
#352=PLANE('',#410);
#353=PLANE('',#411);
#354=ADVANCED_FACE('',(#42),#335,.T.);
#355=ADVANCED_FACE('',(#43),#336,.T.);
#356=ADVANCED_FACE('',(#44),#337,.T.);
#357=ADVANCED_FACE('',(#45),#338,.T.);
#358=ADVANCED_FACE('',(#46),#339,.T.);
#359=ADVANCED_FACE('',(#47),#340,.T.);
#360=ADVANCED_FACE('',(#48),#341,.T.);
#361=ADVANCED_FACE('',(#49),#342,.T.);
#362=ADVANCED_FACE('',(#50,#31),#343,.T.);
#363=ADVANCED_FACE('',(#51,#32),#344,.F.);
#364=ADVANCED_FACE('',(#52,#33),#21,.F.);
#365=ADVANCED_FACE('',(#53,#34),#22,.T.);
#366=ADVANCED_FACE('',(#54,#35),#345,.T.);
#367=ADVANCED_FACE('',(#55,#36),#346,.F.);
#368=ADVANCED_FACE('',(#56,#37),#23,.F.);
#369=ADVANCED_FACE('',(#57,#38),#347,.T.);
#370=ADVANCED_FACE('',(#58,#39),#24,.F.);
#371=ADVANCED_FACE('',(#59),#348,.T.);
#372=ADVANCED_FACE('',(#60),#349,.T.);
#373=ADVANCED_FACE('',(#61),#350,.T.);
#374=ADVANCED_FACE('',(#62),#351,.T.);
#375=ADVANCED_FACE('',(#63,#40),#352,.T.);
#376=ADVANCED_FACE('',(#64,#41),#353,.F.);
#377=CLOSED_SHELL('',(#354,#355,#356,#357,#358,#359,#360,#361,#362,#363));
#378=CLOSED_SHELL('',(#364,#365,#366,#367));
#379=CLOSED_SHELL('',(#368,#369,#370,#371,#372,#373,#374,#375,#376));
#380=AXIS2_PLACEMENT_3D('placement',#512,#412,#413);
#381=AXIS2_PLACEMENT_3D('',#513,#414,#415);
#382=AXIS2_PLACEMENT_3D('',#522,#420,#421);
#383=AXIS2_PLACEMENT_3D('',#528,#425,#426);
#384=AXIS2_PLACEMENT_3D('',#534,#430,#431);
#385=AXIS2_PLACEMENT_3D('',#537,#434,#435);
#386=AXIS2_PLACEMENT_3D('',#546,#440,#441);
#387=AXIS2_PLACEMENT_3D('',#552,#445,#446);
#388=AXIS2_PLACEMENT_3D('',#558,#450,#451);
#389=AXIS2_PLACEMENT_3D('',#561,#454,#455);
#390=AXIS2_PLACEMENT_3D('',#562,#456,#457);
#391=AXIS2_PLACEMENT_3D('',#563,#458,#459);
#392=AXIS2_PLACEMENT_3D('',#565,#460,#461);
#393=AXIS2_PLACEMENT_3D('',#567,#462,#463);
#394=AXIS2_PLACEMENT_3D('',#568,#464,#465);
#395=AXIS2_PLACEMENT_3D('',#570,#466,#467);
#396=AXIS2_PLACEMENT_3D('',#572,#468,#469);
#397=AXIS2_PLACEMENT_3D('',#573,#470,#471);
#398=AXIS2_PLACEMENT_3D('',#574,#472,#473);
#399=AXIS2_PLACEMENT_3D('',#575,#474,#475);
#400=AXIS2_PLACEMENT_3D('',#577,#476,#477);
#401=AXIS2_PLACEMENT_3D('',#579,#478,#479);
#402=AXIS2_PLACEMENT_3D('',#580,#480,#481);
#403=AXIS2_PLACEMENT_3D('',#582,#482,#483);
#404=AXIS2_PLACEMENT_3D('',#583,#484,#485);
#405=AXIS2_PLACEMENT_3D('',#585,#486,#487);
#406=AXIS2_PLACEMENT_3D('',#586,#488,#489);
#407=AXIS2_PLACEMENT_3D('',#595,#494,#495);
#408=AXIS2_PLACEMENT_3D('',#601,#499,#500);
#409=AXIS2_PLACEMENT_3D('',#607,#504,#505);
#410=AXIS2_PLACEMENT_3D('',#610,#508,#509);
#411=AXIS2_PLACEMENT_3D('',#611,#510,#511);
#412=DIRECTION('axis',(0.,0.,1.));
#413=DIRECTION('refdir',(1.,0.,0.));
#414=DIRECTION('center_axis',(1.,0.,0.));
#415=DIRECTION('ref_axis',(0.,0.,-1.));
#416=DIRECTION('',(0.,0.,-1.));
#417=DIRECTION('',(0.,1.,0.));
#418=DIRECTION('',(0.,0.,-1.));
#419=DIRECTION('',(0.,1.,0.));
#420=DIRECTION('center_axis',(0.,0.,-1.));
#421=DIRECTION('ref_axis',(-1.,0.,0.));
#422=DIRECTION('',(-1.,0.,0.));
#423=DIRECTION('',(-1.,0.,0.));
#424=DIRECTION('',(0.,1.,0.));
#425=DIRECTION('center_axis',(-1.,0.,0.));
#426=DIRECTION('ref_axis',(0.,0.,1.));
#427=DIRECTION('',(0.,0.,1.));
#428=DIRECTION('',(0.,0.,1.));
#429=DIRECTION('',(0.,1.,0.));
#430=DIRECTION('center_axis',(0.,0.,1.));
#431=DIRECTION('ref_axis',(1.,0.,0.));
#432=DIRECTION('',(1.,0.,0.));
#433=DIRECTION('',(1.,0.,0.));
#434=DIRECTION('center_axis',(0.,0.,-1.));
#435=DIRECTION('ref_axis',(-1.,0.,0.));
#436=DIRECTION('',(-1.,0.,0.));
#437=DIRECTION('',(0.,1.,0.));
#438=DIRECTION('',(-1.,0.,0.));
#439=DIRECTION('',(0.,1.,0.));
#440=DIRECTION('center_axis',(1.,0.,0.));
#441=DIRECTION('ref_axis',(0.,0.,-1.));
#442=DIRECTION('',(0.,0.,-1.));
#443=DIRECTION('',(0.,0.,-1.));
#444=DIRECTION('',(0.,1.,0.));
#445=DIRECTION('center_axis',(0.,0.,1.));
#446=DIRECTION('ref_axis',(1.,0.,0.));
#447=DIRECTION('',(1.,0.,0.));
#448=DIRECTION('',(1.,0.,0.));
#449=DIRECTION('',(0.,1.,0.));
#450=DIRECTION('center_axis',(-1.,0.,0.));
#451=DIRECTION('ref_axis',(0.,0.,1.));
#452=DIRECTION('',(0.,0.,1.));
#453=DIRECTION('',(0.,0.,1.));
#454=DIRECTION('center_axis',(0.,1.,0.));
#455=DIRECTION('ref_axis',(0.,0.,1.));
#456=DIRECTION('center_axis',(0.,1.,0.));
#457=DIRECTION('ref_axis',(1.,0.,0.));
#458=DIRECTION('center_axis',(0.,1.,0.));
#459=DIRECTION('ref_axis',(1.,0.,0.));
#460=DIRECTION('center_axis',(0.,-1.,0.));
#461=DIRECTION('ref_axis',(1.,0.,0.));
#462=DIRECTION('center_axis',(0.,-1.,0.));
#463=DIRECTION('ref_axis',(1.,0.,0.));
#464=DIRECTION('center_axis',(0.,1.,0.));
#465=DIRECTION('ref_axis',(1.,0.,0.));
#466=DIRECTION('center_axis',(0.,1.,0.));
#467=DIRECTION('ref_axis',(1.,0.,0.));
#468=DIRECTION('center_axis',(0.,1.,0.));
#469=DIRECTION('ref_axis',(1.,0.,0.));
#470=DIRECTION('center_axis',(0.,1.,0.));
#471=DIRECTION('ref_axis',(1.,0.,0.));
#472=DIRECTION('center_axis',(0.,1.,0.));
#473=DIRECTION('ref_axis',(1.,0.,0.));
#474=DIRECTION('center_axis',(0.,-1.,0.));
#475=DIRECTION('ref_axis',(1.,0.,0.));
#476=DIRECTION('center_axis',(0.,-1.,0.));
#477=DIRECTION('ref_axis',(1.,0.,0.));
#478=DIRECTION('center_axis',(0.,-1.,0.));
#479=DIRECTION('ref_axis',(1.,0.,0.));
#480=DIRECTION('center_axis',(0.,1.,0.));
#481=DIRECTION('ref_axis',(0.,0.,1.));
#482=DIRECTION('center_axis',(0.,1.,0.));
#483=DIRECTION('ref_axis',(1.,0.,0.));
#484=DIRECTION('center_axis',(0.,1.,0.));
#485=DIRECTION('ref_axis',(1.,0.,0.));
#486=DIRECTION('center_axis',(0.,-1.,0.));
#487=DIRECTION('ref_axis',(1.,0.,0.));
#488=DIRECTION('center_axis',(1.,0.,0.));
#489=DIRECTION('ref_axis',(0.,0.,-1.));
#490=DIRECTION('',(0.,0.,1.));
#491=DIRECTION('',(0.,1.,0.));
#492=DIRECTION('',(0.,0.,-1.));
#493=DIRECTION('',(0.,1.,0.));
#494=DIRECTION('center_axis',(0.,0.,1.));
#495=DIRECTION('ref_axis',(1.,0.,0.));
#496=DIRECTION('',(-1.,0.,0.));
#497=DIRECTION('',(1.,0.,0.));
#498=DIRECTION('',(0.,1.,0.));
#499=DIRECTION('center_axis',(-1.,0.,0.));
#500=DIRECTION('ref_axis',(0.,0.,1.));
#501=DIRECTION('',(0.,0.,-1.));
#502=DIRECTION('',(0.,0.,1.));
#503=DIRECTION('',(0.,1.,0.));
#504=DIRECTION('center_axis',(0.,0.,-1.));
#505=DIRECTION('ref_axis',(-1.,0.,0.));
#506=DIRECTION('',(1.,0.,0.));
#507=DIRECTION('',(-1.,0.,0.));
#508=DIRECTION('center_axis',(0.,1.,0.));
#509=DIRECTION('ref_axis',(1.,0.,0.));
#510=DIRECTION('center_axis',(0.,1.,0.));
#511=DIRECTION('ref_axis',(1.,0.,0.));
#512=CARTESIAN_POINT('',(0.,0.,0.));
#513=CARTESIAN_POINT('Origin',(1.7,0.,1.));
#514=CARTESIAN_POINT('',(1.7,0.,1.));
#515=CARTESIAN_POINT('',(1.7,0.,-1.));
#516=CARTESIAN_POINT('',(1.7,0.,1.));
#517=CARTESIAN_POINT('',(1.7,0.125,-1.));
#518=CARTESIAN_POINT('',(1.7,0.,-1.));
#519=CARTESIAN_POINT('',(1.7,0.125,1.));
#520=CARTESIAN_POINT('',(1.7,0.125,1.));
#521=CARTESIAN_POINT('',(1.7,0.,1.));
#522=CARTESIAN_POINT('Origin',(3.7,0.,1.));
#523=CARTESIAN_POINT('',(3.7,0.,1.));
#524=CARTESIAN_POINT('',(3.7,0.,1.));
#525=CARTESIAN_POINT('',(3.7,0.125,1.));
#526=CARTESIAN_POINT('',(3.7,0.125,1.));
#527=CARTESIAN_POINT('',(3.7,0.,1.));
#528=CARTESIAN_POINT('Origin',(3.7,0.,-1.));
#529=CARTESIAN_POINT('',(3.7,0.,-1.));
#530=CARTESIAN_POINT('',(3.7,0.,-1.));
#531=CARTESIAN_POINT('',(3.7,0.125,-1.));
#532=CARTESIAN_POINT('',(3.7,0.125,-1.));
#533=CARTESIAN_POINT('',(3.7,0.,-1.));
#534=CARTESIAN_POINT('Origin',(1.7,0.,-1.));
#535=CARTESIAN_POINT('',(1.7,0.,-1.));
#536=CARTESIAN_POINT('',(1.7,0.125,-1.));
#537=CARTESIAN_POINT('Origin',(3.9,0.,-1.2));
#538=CARTESIAN_POINT('',(3.9,0.,-1.2));
#539=CARTESIAN_POINT('',(1.5,0.,-1.2));
#540=CARTESIAN_POINT('',(3.9,0.,-1.2));
#541=CARTESIAN_POINT('',(1.5,0.125,-1.2));
#542=CARTESIAN_POINT('',(1.5,0.,-1.2));
#543=CARTESIAN_POINT('',(3.9,0.125,-1.2));
#544=CARTESIAN_POINT('',(3.9,0.125,-1.2));
#545=CARTESIAN_POINT('',(3.9,0.,-1.2));
#546=CARTESIAN_POINT('Origin',(3.9,0.,1.2));
#547=CARTESIAN_POINT('',(3.9,0.,1.2));
#548=CARTESIAN_POINT('',(3.9,0.,1.2));
#549=CARTESIAN_POINT('',(3.9,0.125,1.2));
#550=CARTESIAN_POINT('',(3.9,0.125,1.2));
#551=CARTESIAN_POINT('',(3.9,0.,1.2));
#552=CARTESIAN_POINT('Origin',(1.5,0.,1.2));
#553=CARTESIAN_POINT('',(1.5,0.,1.2));
#554=CARTESIAN_POINT('',(1.5,0.,1.2));
#555=CARTESIAN_POINT('',(1.5,0.125,1.2));
#556=CARTESIAN_POINT('',(1.5,0.125,1.2));
#557=CARTESIAN_POINT('',(1.5,0.,1.2));
#558=CARTESIAN_POINT('Origin',(1.5,0.,-1.2));
#559=CARTESIAN_POINT('',(1.5,0.,-1.2));
#560=CARTESIAN_POINT('',(1.5,0.125,-1.2));
#561=CARTESIAN_POINT('Origin',(2.7,0.125,0.));
#562=CARTESIAN_POINT('Origin',(2.7,0.,0.));
#563=CARTESIAN_POINT('Origin',(2.7,0.,-1.09273919746571E-17));
#564=CARTESIAN_POINT('',(2.6,0.125,1.31907601681646E-18));
#565=CARTESIAN_POINT('Origin',(2.7,0.125,-1.09273919746571E-17));
#566=CARTESIAN_POINT('',(2.6,0.,1.31907601681646E-18));
#567=CARTESIAN_POINT('Origin',(2.7,0.,-1.09273919746571E-17));
#568=CARTESIAN_POINT('Origin',(2.7,0.,-1.09273919746571E-17));
#569=CARTESIAN_POINT('',(2.2,0.125,5.03049479827106E-17));
#570=CARTESIAN_POINT('Origin',(2.7,0.125,-1.09273919746571E-17));
#571=CARTESIAN_POINT('',(2.2,0.,5.03049479827106E-17));
#572=CARTESIAN_POINT('Origin',(2.7,0.,-1.09273919746571E-17));
#573=CARTESIAN_POINT('Origin',(2.7,0.125,0.));
#574=CARTESIAN_POINT('Origin',(2.7,0.,0.));
#575=CARTESIAN_POINT('Origin',(0.,0.125,0.));
#576=CARTESIAN_POINT('',(-0.6,0.105,-7.34788079488412E-17));
#577=CARTESIAN_POINT('Origin',(0.,0.105,0.));
#578=CARTESIAN_POINT('',(-0.6,0.125,-7.34788079488412E-17));
#579=CARTESIAN_POINT('Origin',(0.,0.125,0.));
#580=CARTESIAN_POINT('Origin',(0.,0.105,0.));
#581=CARTESIAN_POINT('',(-0.125,0.105,1.53080849893419E-17));
#582=CARTESIAN_POINT('Origin',(0.,0.105,0.));
#583=CARTESIAN_POINT('Origin',(0.,0.,0.));
#584=CARTESIAN_POINT('',(-0.125,0.,1.53080849893419E-17));
#585=CARTESIAN_POINT('Origin',(0.,0.,0.));
#586=CARTESIAN_POINT('Origin',(1.2,0.,1.2));
#587=CARTESIAN_POINT('',(1.2,0.,-1.2));
#588=CARTESIAN_POINT('',(1.2,0.,1.2));
#589=CARTESIAN_POINT('',(1.2,0.,-1.2));
#590=CARTESIAN_POINT('',(1.2,0.125,-1.2));
#591=CARTESIAN_POINT('',(1.2,0.,-1.2));
#592=CARTESIAN_POINT('',(1.2,0.125,1.2));
#593=CARTESIAN_POINT('',(1.2,0.125,-1.2));
#594=CARTESIAN_POINT('',(1.2,0.,1.2));
#595=CARTESIAN_POINT('Origin',(-1.2,0.,1.2));
#596=CARTESIAN_POINT('',(-1.2,0.,1.2));
#597=CARTESIAN_POINT('',(1.2,0.,1.2));
#598=CARTESIAN_POINT('',(-1.2,0.125,1.2));
#599=CARTESIAN_POINT('',(1.2,0.125,1.2));
#600=CARTESIAN_POINT('',(-1.2,0.,1.2));
#601=CARTESIAN_POINT('Origin',(-1.2,0.,-1.2));
#602=CARTESIAN_POINT('',(-1.2,0.,-1.2));
#603=CARTESIAN_POINT('',(-1.2,0.,1.2));
#604=CARTESIAN_POINT('',(-1.2,0.125,-1.2));
#605=CARTESIAN_POINT('',(-1.2,0.125,1.2));
#606=CARTESIAN_POINT('',(-1.2,0.,-1.2));
#607=CARTESIAN_POINT('Origin',(1.2,0.,-1.2));
#608=CARTESIAN_POINT('',(-1.2,0.,-1.2));
#609=CARTESIAN_POINT('',(-1.2,0.125,-1.2));
#610=CARTESIAN_POINT('Origin',(0.,0.125,0.));
#611=CARTESIAN_POINT('Origin',(0.,0.,0.));
#612=UNCERTAINTY_MEASURE_WITH_UNIT(LENGTH_MEASURE(0.000393700787401575),
#617,'DISTANCE_ACCURACY_VALUE',
'Maximum model space distance between geometric entities at asserted c
onnectivities');
#613=UNCERTAINTY_MEASURE_WITH_UNIT(LENGTH_MEASURE(0.000393700787401575),
#617,'DISTANCE_ACCURACY_VALUE',
'Maximum model space distance between geometric entities at asserted c
onnectivities');
#614=(
GEOMETRIC_REPRESENTATION_CONTEXT(3)
GLOBAL_UNCERTAINTY_ASSIGNED_CONTEXT((#612))
GLOBAL_UNIT_ASSIGNED_CONTEXT((#617,#621,#620))
REPRESENTATION_CONTEXT('','3D')
);
#615=(
GEOMETRIC_REPRESENTATION_CONTEXT(3)
GLOBAL_UNCERTAINTY_ASSIGNED_CONTEXT((#613))
GLOBAL_UNIT_ASSIGNED_CONTEXT((#617,#621,#620))
REPRESENTATION_CONTEXT('','3D')
);
#616=DIMENSIONAL_EXPONENTS(1.,0.,0.,0.,0.,0.,0.);
#617=(
CONVERSION_BASED_UNIT('inch',#619)
LENGTH_UNIT()
NAMED_UNIT(#616)
);
#618=(
LENGTH_UNIT()
NAMED_UNIT(*)
SI_UNIT(.MILLI.,.METRE.)
);
#619=LENGTH_MEASURE_WITH_UNIT(LENGTH_MEASURE(25.4),#618);
#620=(
NAMED_UNIT(*)
SI_UNIT($,.STERADIAN.)
SOLID_ANGLE_UNIT()
);
#621=(
NAMED_UNIT(*)
PLANE_ANGLE_UNIT()
SI_UNIT($,.RADIAN.)
);
#622=SHAPE_DEFINITION_REPRESENTATION(#623,#624);
#623=PRODUCT_DEFINITION_SHAPE('',$,#626);
#624=SHAPE_REPRESENTATION('',(#380),#614);
#625=PRODUCT_DEFINITION_CONTEXT('part definition',#630,'design');
#626=PRODUCT_DEFINITION('face CAM v6','face CAM v6',#627,#625);
#627=PRODUCT_DEFINITION_FORMATION('',$,#632);
#628=PRODUCT_RELATED_PRODUCT_CATEGORY('face CAM v6','face CAM v6',(#632));
#629=APPLICATION_PROTOCOL_DEFINITION('international standard',
'automotive_design',2009,#630);
#630=APPLICATION_CONTEXT(
'Core Data for Automotive Mechanical Design Process');
#631=PRODUCT_CONTEXT('part definition',#630,'mechanical');
#632=PRODUCT('face CAM v6','face CAM v6',$,(#631));
#633=PRESENTATION_STYLE_ASSIGNMENT((#634));
#634=SURFACE_STYLE_USAGE(.BOTH.,#635);
#635=SURFACE_SIDE_STYLE('',(#636));
#636=SURFACE_STYLE_FILL_AREA(#637);
#637=FILL_AREA_STYLE('Steel - Satin',(#638));
#638=FILL_AREA_STYLE_COLOUR('Steel - Satin',#639);
#639=COLOUR_RGB('Steel - Satin',0.627450980392157,0.627450980392157,0.627450980392157);
ENDSEC;
END-ISO-10303-21;
