ISO-10303-21;
HEADER;
/* Generated by software containing ST-Developer
 * from STEP Tools, Inc. (www.steptools.com) 
 */

FILE_DESCRIPTION(
/* description */ (''),
/* implementation_level */ '2;1');

FILE_NAME(
/* name */ 
'C:/Users/brian/Documents/Projects/Project folders (active-ish)/Replic
a RickAndMorty Butter Bot (Machined)/thingverse files/Peephole Fisheye
 v1.step',
/* time_stamp */ '2017-08-20T12:42:51-07:00',
/* author */ (''),
/* organization */ (''),
/* preprocessor_version */ 'ST-DEVELOPER v16.13',
/* originating_system */ 'Autodesk Translation Framework v6.1.1.50',
/* authorisation */ '');

FILE_SCHEMA (('AUTOMOTIVE_DESIGN { 1 0 10303 214 3 1 1 }'));
ENDSEC;

DATA;
#10=MECHANICAL_DESIGN_GEOMETRIC_PRESENTATION_REPRESENTATION('',(#121,#117,
#119,#118,#120),#241);
#11=SHAPE_REPRESENTATION_RELATIONSHIP('SRR','None',#250,#12);
#12=ADVANCED_BREP_SHAPE_REPRESENTATION('',(#14,#15),#240);
#13=SPHERICAL_SURFACE('',#158,1.08333333333333);
#14=MANIFOLD_SOLID_BREP('Body1',#134);
#15=MANIFOLD_SOLID_BREP('Body2',#135);
#16=FACE_BOUND('',#43,.T.);
#17=FACE_BOUND('',#45,.T.);
#18=FACE_BOUND('',#47,.T.);
#19=FACE_BOUND('',#49,.T.);
#20=FACE_BOUND('',#51,.T.);
#21=FACE_BOUND('',#53,.T.);
#22=FACE_BOUND('',#55,.T.);
#23=FACE_BOUND('',#58,.T.);
#24=CYLINDRICAL_SURFACE('',#139,0.35);
#25=CYLINDRICAL_SURFACE('',#143,0.55);
#26=CYLINDRICAL_SURFACE('',#147,0.6);
#27=CYLINDRICAL_SURFACE('',#151,0.18515);
#28=CYLINDRICAL_SURFACE('',#154,0.55);
#29=FACE_OUTER_BOUND('',#41,.T.);
#30=FACE_OUTER_BOUND('',#42,.T.);
#31=FACE_OUTER_BOUND('',#44,.T.);
#32=FACE_OUTER_BOUND('',#46,.T.);
#33=FACE_OUTER_BOUND('',#48,.T.);
#34=FACE_OUTER_BOUND('',#50,.T.);
#35=FACE_OUTER_BOUND('',#52,.T.);
#36=FACE_OUTER_BOUND('',#54,.T.);
#37=FACE_OUTER_BOUND('',#56,.T.);
#38=FACE_OUTER_BOUND('',#57,.T.);
#39=FACE_OUTER_BOUND('',#59,.T.);
#40=FACE_OUTER_BOUND('',#60,.T.);
#41=EDGE_LOOP('',(#91));
#42=EDGE_LOOP('',(#92));
#43=EDGE_LOOP('',(#93));
#44=EDGE_LOOP('',(#94));
#45=EDGE_LOOP('',(#95));
#46=EDGE_LOOP('',(#96));
#47=EDGE_LOOP('',(#97));
#48=EDGE_LOOP('',(#98));
#49=EDGE_LOOP('',(#99));
#50=EDGE_LOOP('',(#100));
#51=EDGE_LOOP('',(#101));
#52=EDGE_LOOP('',(#102));
#53=EDGE_LOOP('',(#103));
#54=EDGE_LOOP('',(#104));
#55=EDGE_LOOP('',(#105));
#56=EDGE_LOOP('',(#106));
#57=EDGE_LOOP('',(#107));
#58=EDGE_LOOP('',(#108));
#59=EDGE_LOOP('',(#109));
#60=EDGE_LOOP('',(#110));
#61=CIRCLE('',#138,0.35);
#62=CIRCLE('',#140,0.35);
#63=CIRCLE('',#142,0.55);
#64=CIRCLE('',#144,0.55);
#65=CIRCLE('',#146,0.6);
#66=CIRCLE('',#148,0.6);
#67=CIRCLE('',#150,0.18515);
#68=CIRCLE('',#152,0.18515);
#69=CIRCLE('',#155,0.55);
#70=CIRCLE('',#156,0.55);
#71=VERTEX_POINT('',#207);
#72=VERTEX_POINT('',#210);
#73=VERTEX_POINT('',#213);
#74=VERTEX_POINT('',#216);
#75=VERTEX_POINT('',#219);
#76=VERTEX_POINT('',#222);
#77=VERTEX_POINT('',#225);
#78=VERTEX_POINT('',#228);
#79=VERTEX_POINT('',#232);
#80=VERTEX_POINT('',#234);
#81=EDGE_CURVE('',#71,#71,#61,.T.);
#82=EDGE_CURVE('',#72,#72,#62,.T.);
#83=EDGE_CURVE('',#73,#73,#63,.T.);
#84=EDGE_CURVE('',#74,#74,#64,.T.);
#85=EDGE_CURVE('',#75,#75,#65,.T.);
#86=EDGE_CURVE('',#76,#76,#66,.T.);
#87=EDGE_CURVE('',#77,#77,#67,.F.);
#88=EDGE_CURVE('',#78,#78,#68,.F.);
#89=EDGE_CURVE('',#79,#79,#69,.T.);
#90=EDGE_CURVE('',#80,#80,#70,.T.);
#91=ORIENTED_EDGE('',*,*,#81,.F.);
#92=ORIENTED_EDGE('',*,*,#81,.T.);
#93=ORIENTED_EDGE('',*,*,#82,.F.);
#94=ORIENTED_EDGE('',*,*,#83,.F.);
#95=ORIENTED_EDGE('',*,*,#82,.T.);
#96=ORIENTED_EDGE('',*,*,#83,.T.);
#97=ORIENTED_EDGE('',*,*,#84,.F.);
#98=ORIENTED_EDGE('',*,*,#85,.F.);
#99=ORIENTED_EDGE('',*,*,#84,.T.);
#100=ORIENTED_EDGE('',*,*,#85,.T.);
#101=ORIENTED_EDGE('',*,*,#86,.F.);
#102=ORIENTED_EDGE('',*,*,#86,.T.);
#103=ORIENTED_EDGE('',*,*,#87,.F.);
#104=ORIENTED_EDGE('',*,*,#87,.T.);
#105=ORIENTED_EDGE('',*,*,#88,.F.);
#106=ORIENTED_EDGE('',*,*,#88,.T.);
#107=ORIENTED_EDGE('',*,*,#89,.T.);
#108=ORIENTED_EDGE('',*,*,#90,.F.);
#109=ORIENTED_EDGE('',*,*,#90,.T.);
#110=ORIENTED_EDGE('',*,*,#89,.F.);
#111=PLANE('',#137);
#112=PLANE('',#141);
#113=PLANE('',#145);
#114=PLANE('',#149);
#115=PLANE('',#153);
#116=PLANE('',#157);
#117=STYLED_ITEM('',(#260),#122);
#118=STYLED_ITEM('',(#261),#123);
#119=STYLED_ITEM('',(#261),#124);
#120=STYLED_ITEM('',(#259),#14);
#121=STYLED_ITEM('',(#262),#15);
#122=ADVANCED_FACE('',(#29),#111,.T.);
#123=ADVANCED_FACE('',(#30,#16),#24,.F.);
#124=ADVANCED_FACE('',(#31,#17),#112,.T.);
#125=ADVANCED_FACE('',(#32,#18),#25,.F.);
#126=ADVANCED_FACE('',(#33,#19),#113,.T.);
#127=ADVANCED_FACE('',(#34,#20),#26,.T.);
#128=ADVANCED_FACE('',(#35,#21),#114,.T.);
#129=ADVANCED_FACE('',(#36,#22),#27,.T.);
#130=ADVANCED_FACE('',(#37),#115,.T.);
#131=ADVANCED_FACE('',(#38,#23),#28,.T.);
#132=ADVANCED_FACE('',(#39),#116,.T.);
#133=ADVANCED_FACE('',(#40),#13,.T.);
#134=CLOSED_SHELL('',(#122,#123,#124,#125,#126,#127,#128,#129,#130));
#135=CLOSED_SHELL('',(#131,#132,#133));
#136=AXIS2_PLACEMENT_3D('placement',#205,#159,#160);
#137=AXIS2_PLACEMENT_3D('',#206,#161,#162);
#138=AXIS2_PLACEMENT_3D('',#208,#163,#164);
#139=AXIS2_PLACEMENT_3D('',#209,#165,#166);
#140=AXIS2_PLACEMENT_3D('',#211,#167,#168);
#141=AXIS2_PLACEMENT_3D('',#212,#169,#170);
#142=AXIS2_PLACEMENT_3D('',#214,#171,#172);
#143=AXIS2_PLACEMENT_3D('',#215,#173,#174);
#144=AXIS2_PLACEMENT_3D('',#217,#175,#176);
#145=AXIS2_PLACEMENT_3D('',#218,#177,#178);
#146=AXIS2_PLACEMENT_3D('',#220,#179,#180);
#147=AXIS2_PLACEMENT_3D('',#221,#181,#182);
#148=AXIS2_PLACEMENT_3D('',#223,#183,#184);
#149=AXIS2_PLACEMENT_3D('',#224,#185,#186);
#150=AXIS2_PLACEMENT_3D('',#226,#187,#188);
#151=AXIS2_PLACEMENT_3D('',#227,#189,#190);
#152=AXIS2_PLACEMENT_3D('',#229,#191,#192);
#153=AXIS2_PLACEMENT_3D('',#230,#193,#194);
#154=AXIS2_PLACEMENT_3D('',#231,#195,#196);
#155=AXIS2_PLACEMENT_3D('',#233,#197,#198);
#156=AXIS2_PLACEMENT_3D('',#235,#199,#200);
#157=AXIS2_PLACEMENT_3D('',#236,#201,#202);
#158=AXIS2_PLACEMENT_3D('',#237,#203,#204);
#159=DIRECTION('axis',(0.,0.,1.));
#160=DIRECTION('refdir',(1.,0.,0.));
#161=DIRECTION('center_axis',(0.,0.,1.));
#162=DIRECTION('ref_axis',(1.,0.,0.));
#163=DIRECTION('center_axis',(0.,0.,-1.));
#164=DIRECTION('ref_axis',(1.,0.,0.));
#165=DIRECTION('center_axis',(0.,0.,-1.));
#166=DIRECTION('ref_axis',(0.,1.,0.));
#167=DIRECTION('center_axis',(0.,0.,-1.));
#168=DIRECTION('ref_axis',(1.,0.,0.));
#169=DIRECTION('center_axis',(0.,0.,1.));
#170=DIRECTION('ref_axis',(1.,0.,0.));
#171=DIRECTION('center_axis',(0.,0.,-1.));
#172=DIRECTION('ref_axis',(1.,0.,0.));
#173=DIRECTION('center_axis',(0.,0.,-1.));
#174=DIRECTION('ref_axis',(0.,1.,0.));
#175=DIRECTION('center_axis',(0.,0.,-1.));
#176=DIRECTION('ref_axis',(1.,0.,0.));
#177=DIRECTION('center_axis',(0.,0.,1.));
#178=DIRECTION('ref_axis',(1.,0.,0.));
#179=DIRECTION('center_axis',(0.,0.,-1.));
#180=DIRECTION('ref_axis',(1.,0.,0.));
#181=DIRECTION('center_axis',(0.,0.,-1.));
#182=DIRECTION('ref_axis',(0.,1.,0.));
#183=DIRECTION('center_axis',(0.,0.,-1.));
#184=DIRECTION('ref_axis',(1.,0.,0.));
#185=DIRECTION('center_axis',(0.,0.,-1.));
#186=DIRECTION('ref_axis',(-1.,0.,0.));
#187=DIRECTION('center_axis',(0.,0.,1.));
#188=DIRECTION('ref_axis',(0.,1.,0.));
#189=DIRECTION('center_axis',(0.,0.,-1.));
#190=DIRECTION('ref_axis',(0.,1.,0.));
#191=DIRECTION('center_axis',(0.,0.,1.));
#192=DIRECTION('ref_axis',(0.,1.,0.));
#193=DIRECTION('center_axis',(0.,0.,-1.));
#194=DIRECTION('ref_axis',(-1.,0.,0.));
#195=DIRECTION('center_axis',(0.,0.,-1.));
#196=DIRECTION('ref_axis',(0.,1.,0.));
#197=DIRECTION('center_axis',(0.,0.,-1.));
#198=DIRECTION('ref_axis',(1.,0.,0.));
#199=DIRECTION('center_axis',(0.,0.,-1.));
#200=DIRECTION('ref_axis',(1.,0.,0.));
#201=DIRECTION('center_axis',(0.,0.,-1.));
#202=DIRECTION('ref_axis',(-1.,0.,0.));
#203=DIRECTION('center_axis',(6.12323399573677E-17,0.,1.));
#204=DIRECTION('ref_axis',(1.,0.,0.));
#205=CARTESIAN_POINT('',(0.,0.,0.));
#206=CARTESIAN_POINT('Origin',(0.,0.35,0.1));
#207=CARTESIAN_POINT('',(0.,0.35,0.1));
#208=CARTESIAN_POINT('Origin',(0.,-3.0696975817282E-33,0.1));
#209=CARTESIAN_POINT('Origin',(0.,-3.0696975817282E-33,0.125));
#210=CARTESIAN_POINT('',(0.,0.35,0.15));
#211=CARTESIAN_POINT('Origin',(0.,-3.0696975817282E-33,0.15));
#212=CARTESIAN_POINT('Origin',(0.,0.55,0.15));
#213=CARTESIAN_POINT('',(0.,0.55,0.15));
#214=CARTESIAN_POINT('Origin',(0.,-3.0696975817282E-33,0.15));
#215=CARTESIAN_POINT('Origin',(0.,-3.0696975817282E-33,0.2));
#216=CARTESIAN_POINT('',(0.,0.55,0.25));
#217=CARTESIAN_POINT('Origin',(0.,-3.0696975817282E-33,0.25));
#218=CARTESIAN_POINT('Origin',(0.,0.6,0.25));
#219=CARTESIAN_POINT('',(0.,0.6,0.25));
#220=CARTESIAN_POINT('Origin',(0.,-3.0696975817282E-33,0.25));
#221=CARTESIAN_POINT('Origin',(0.,-3.0696975817282E-33,0.125));
#222=CARTESIAN_POINT('',(0.,0.6,1.83697014009542E-17));
#223=CARTESIAN_POINT('Origin',(0.,-3.0696975817282E-33,0.));
#224=CARTESIAN_POINT('Origin',(0.,0.300000009574289,0.));
#225=CARTESIAN_POINT('',(2.26743354862132E-17,-0.18515,0.));
#226=CARTESIAN_POINT('Origin',(0.,-3.0696975817282E-33,0.));
#227=CARTESIAN_POINT('Origin',(0.,-3.0696975817282E-33,-0.500000015957149));
#228=CARTESIAN_POINT('',(2.26743354862132E-17,-0.18515,-1.0000000319143));
#229=CARTESIAN_POINT('Origin',(0.,-3.0696975817282E-33,-1.0000000319143));
#230=CARTESIAN_POINT('Origin',(0.,0.,-1.0000000319143));
#231=CARTESIAN_POINT('Origin',(0.,2.02897120141088E-33,0.175));
#232=CARTESIAN_POINT('',(0.,0.55,0.2));
#233=CARTESIAN_POINT('Origin',(0.,2.02897120141088E-33,0.2));
#234=CARTESIAN_POINT('',(0.,0.55,0.15));
#235=CARTESIAN_POINT('Origin',(0.,2.02897120141088E-33,0.15));
#236=CARTESIAN_POINT('Origin',(0.,0.,0.15));
#237=CARTESIAN_POINT('Origin',(0.,0.,-0.733333333333332));
#238=UNCERTAINTY_MEASURE_WITH_UNIT(LENGTH_MEASURE(0.000393700787401575),
#243,'DISTANCE_ACCURACY_VALUE',
'Maximum model space distance between geometric entities at asserted c
onnectivities');
#239=UNCERTAINTY_MEASURE_WITH_UNIT(LENGTH_MEASURE(0.000393700787401575),
#243,'DISTANCE_ACCURACY_VALUE',
'Maximum model space distance between geometric entities at asserted c
onnectivities');
#240=(
GEOMETRIC_REPRESENTATION_CONTEXT(3)
GLOBAL_UNCERTAINTY_ASSIGNED_CONTEXT((#238))
GLOBAL_UNIT_ASSIGNED_CONTEXT((#243,#247,#246))
REPRESENTATION_CONTEXT('','3D')
);
#241=(
GEOMETRIC_REPRESENTATION_CONTEXT(3)
GLOBAL_UNCERTAINTY_ASSIGNED_CONTEXT((#239))
GLOBAL_UNIT_ASSIGNED_CONTEXT((#243,#247,#246))
REPRESENTATION_CONTEXT('','3D')
);
#242=DIMENSIONAL_EXPONENTS(1.,0.,0.,0.,0.,0.,0.);
#243=(
CONVERSION_BASED_UNIT('inch',#245)
LENGTH_UNIT()
NAMED_UNIT(#242)
);
#244=(
LENGTH_UNIT()
NAMED_UNIT(*)
SI_UNIT(.MILLI.,.METRE.)
);
#245=LENGTH_MEASURE_WITH_UNIT(LENGTH_MEASURE(25.4),#244);
#246=(
NAMED_UNIT(*)
SI_UNIT($,.STERADIAN.)
SOLID_ANGLE_UNIT()
);
#247=(
NAMED_UNIT(*)
PLANE_ANGLE_UNIT()
SI_UNIT($,.RADIAN.)
);
#248=SHAPE_DEFINITION_REPRESENTATION(#249,#250);
#249=PRODUCT_DEFINITION_SHAPE('',$,#252);
#250=SHAPE_REPRESENTATION('',(#136),#240);
#251=PRODUCT_DEFINITION_CONTEXT('part definition',#256,'design');
#252=PRODUCT_DEFINITION('Peephole Fisheye v1','Peephole Fisheye v1',#253,
#251);
#253=PRODUCT_DEFINITION_FORMATION('',$,#258);
#254=PRODUCT_RELATED_PRODUCT_CATEGORY('Peephole Fisheye v1',
'Peephole Fisheye v1',(#258));
#255=APPLICATION_PROTOCOL_DEFINITION('international standard',
'automotive_design',2009,#256);
#256=APPLICATION_CONTEXT(
'Core Data for Automotive Mechanical Design Process');
#257=PRODUCT_CONTEXT('part definition',#256,'mechanical');
#258=PRODUCT('Peephole Fisheye v1','Peephole Fisheye v1',$,(#257));
#259=PRESENTATION_STYLE_ASSIGNMENT((#263));
#260=PRESENTATION_STYLE_ASSIGNMENT((#264));
#261=PRESENTATION_STYLE_ASSIGNMENT((#265));
#262=PRESENTATION_STYLE_ASSIGNMENT((#266));
#263=SURFACE_STYLE_USAGE(.BOTH.,#267);
#264=SURFACE_STYLE_USAGE(.BOTH.,#268);
#265=SURFACE_STYLE_USAGE(.BOTH.,#269);
#266=SURFACE_STYLE_USAGE(.BOTH.,#270);
#267=SURFACE_SIDE_STYLE('',(#271));
#268=SURFACE_SIDE_STYLE('',(#272));
#269=SURFACE_SIDE_STYLE('',(#273));
#270=SURFACE_SIDE_STYLE('',(#274));
#271=SURFACE_STYLE_FILL_AREA(#275);
#272=SURFACE_STYLE_FILL_AREA(#276);
#273=SURFACE_STYLE_FILL_AREA(#277);
#274=SURFACE_STYLE_FILL_AREA(#278);
#275=FILL_AREA_STYLE('Steel - Satin',(#279));
#276=FILL_AREA_STYLE('Plastic - Glossy (White)',(#280));
#277=FILL_AREA_STYLE('Plastic - Glossy (Black)',(#281));
#278=FILL_AREA_STYLE('Glass - Light Color (Blue)',(#282));
#279=FILL_AREA_STYLE_COLOUR('Steel - Satin',#283);
#280=FILL_AREA_STYLE_COLOUR('Plastic - Glossy (White)',#284);
#281=FILL_AREA_STYLE_COLOUR('Plastic - Glossy (Black)',#285);
#282=FILL_AREA_STYLE_COLOUR('Glass - Light Color (Blue)',#286);
#283=COLOUR_RGB('Steel - Satin',0.627450980392157,0.627450980392157,0.627450980392157);
#284=COLOUR_RGB('Plastic - Glossy (White)',0.964705882352941,0.964705882352941,
0.952941176470588);
#285=COLOUR_RGB('Plastic - Glossy (Black)',0.0980392156862745,0.0980392156862745,
0.0980392156862745);
#286=COLOUR_RGB('Glass - Light Color (Blue)',0.423529411764706,0.768627450980392,
0.854901960784314);
ENDSEC;
END-ISO-10303-21;
